Fahrenheit

burger king

Active Member
Legacy
Opening:
Bass:
Repeat x2
G|----------------------|
D|----------------------|
A|1~-------------------|
E|---------2~----------|
Guitar part: (during bass part also repeat x2) pauses may be too long but you can recognize it on beat
e|-----------------------------------------------------------|
B|-----------------------------------------------------------|
G|3~--------------------------------------------------------|
D|3~--------------------4~---------------------------------|
A|1~---------33553----4~--------33553-------------------|
E|-----------------------2~----------------------------------|

Verse:
Bass:
Repeat for whole verse
G|----------------------|
D|----------------------|
A|---------------3355--|
E|2-22-2-1-11---------|

Chorus:
The chorus is just the opening of the song LOL!

Guitar part is kinda like bass part but some parts are muted and you also do some weird noises that mixes in with it.

Bridge part: idk it I usually do A|55-33-11-33|
but its wrong but i'll focus on it one day.

Ending part: start from medium playing to fast with the tempo.
Bass: play along with guitar
G|-------------------------------------|
D|-------------------------------------|
A|----------------5-55-5----44-------|
E|2-22-2-3-33-3---------66----------|

guitar part is exactly like the bass part except you gotta add the extra stuff ya know.

This is my submission to https://www.ultimate-guitar.com/ and I expect a full payment in pennies when I get exactly 10 clicks on this tab, Thank you :D
 
Top